0
SECTION
2
HEADER
9
$INSUNITS
70
4
9
$ACADVER
1
AC1014
9
$HANDSEED
5
FFFF
0
ENDSEC
0
SECTION
2
TABLES
0
TABLE
2
VPORT
5
8
100
AcDbSymbolTable
0
ENDTAB
0
TABLE
2
LTYPE
5
5
100
AcDbSymbolTable
0
LTYPE
5
14
100
AcDbSymbolTableRecord
100
AcDbLinetypeTableRecord
2
BYBLOCK
70
0
0
LTYPE
5
15
100
AcDbSymbolTableRecord
100
AcDbLinetypeTableRecord
2
BYLAYER
70
0
0
ENDTAB
0
TABLE
2
LAYER
5
2
100
AcDbSymbolTable
70
2
0
LAYER
5
50
100
AcDbSymbolTableRecord
100
AcDbLayerTableRecord
2
0
70
0
6
CONTINUOUS
0
ENDTAB
0
TABLE
2
STYLE
5
3
100
AcDbSymbolTable
70
1
0
STYLE
5
11
100
AcDbSymbolTableRecord
100
AcDbTextStyleTableRecord
2
STANDARD
70
0
0
ENDTAB
0
TABLE
2
VIEW
5
6
100
AcDbSymbolTable
70
0
0
ENDTAB
0
TABLE
2
UCS
5
7
100
AcDbSymbolTable
70
0
0
ENDTAB
0
TABLE
2
APPID
5
9
100
AcDbSymbolTable
70
2
0
APPID
5
12
100
AcDbSymbolTableRecord
100
AcDbRegAppTableRecord
2
ACAD
70
0
0
ENDTAB
0
TABLE
2
DIMSTYLE
5
A
100
AcDbSymbolTable
70
1
0
ENDTAB
0
TABLE
2
BLOCK_RECORD
5
1
100
AcDbSymbolTable
70
1
0
BLOCK_RECORD
5
1F
100
AcDbSymbolTableRecord
100
AcDbBlockTableRecord
2
*MODEL_SPACE
0
BLOCK_RECORD
5
1B
100
AcDbSymbolTableRecord
100
AcDbBlockTableRecord
2
*PAPER_SPACE
0
ENDTAB
0
ENDSEC
0
SECTION
2
BLOCKS
0
BLOCK
5
20
100
AcDbEntity
100
AcDbBlockBegin
2
*MODEL_SPACE
0
ENDBLK
5
21
100
AcDbEntity
100
AcDbBlockEnd
0
BLOCK
5
1C
100
AcDbEntity
100
AcDbBlockBegin
2
*PAPER_SPACE
0
ENDBLK
5
1D
100
AcDbEntity
100
AcDbBlockEnd
0
ENDSEC
0
SECTION
2
ENTITIES
0
CIRCLE
5
100
100
AcDbEntity
8
0
100
AcDbCircle
10
27.223816216186798
20
28.375555833673111
30
0
40
1.7999999999999972
0
LWPOLYLINE
5
101
100
AcDbEntity
8
0
100
AcDbPolyline
90
4
70
1
43
0.0
10
52.023816201285641
20
26.928334021404826
42
-0.3537029199714164
10
43.57659440391852
20
35.37555581877195
10
46.50001364635088
20
35.375555818771957
42
0.32767408120124752
10
52.023816201285655
20
29.851753263837189
0
LWPOLYLINE
5
102
100
AcDbEntity
8
0
100
AcDbPolyline
90
4
70
1
43
0.0
10
62.471038028455091
20
35.375555818771957
10
59.54761878602276
20
35.37555581877195
42
-0.32767408120124841
10
54.023816231087963
20
29.851753263837189
10
54.023816231087963
20
26.928334021404812
42
0.35370291997141745
0
CIRCLE
5
103
100
AcDbEntity
8
0
100
AcDbCircle
10
31.223816216186798
20
28.375555833673111
30
0
40
1.7999999999999972
0
CIRCLE
5
104
100
AcDbEntity
8
0
100
AcDbCircle
10
23.22381621618679
20
28.375555833673111
30
0
40
1.7999999999999972
0
LWPOLYLINE
5
105
100
AcDbEntity
8
0
100
AcDbPolyline
90
4
70
1
43
0.0
10
54.023816231087956
20
42.899358403509041
42
-0.32767408120124913
10
59.547618786022731
20
37.37555584857428
10
62.471038028455091
20
37.375555848574287
42
0.3537029199714179
10
54.023816231087963
20
45.822777645941414
0
LWPOLYLINE
5
106
100
AcDbEntity
8
0
100
AcDbPolyline
90
4
70
1
43
0.0
10
43.57659440391852
20
37.37555584857428
10
46.500013646350908
20
37.375555848574272
42
-0.32767408120125113
10
52.023816201285712
20
42.899358403509055
10
52.023816201285641
20
45.822777645941414
42
0.35370291997141723
0
CIRCLE
5
107
100
AcDbEntity
8
0
100
AcDbCircle
10
35.223816216186805
20
28.375555833673111
30
0
40
1.7999999999999972
0
LWPOLYLINE
5
108
100
AcDbEntity
8
0
100
AcDbPolyline
90
4
70
1
43
0.0
10
94.445405348010581
20
40.000499320330988
10
94.445405348010581
20
32.36898570899541
42
0.0834322204507017
10
95.445405348010596
20
34.049326864256962
10
95.44540534801061
20
38.320158165069429
42
0.083432220450695538
0
LWPOLYLINE
5
109
100
AcDbEntity
8
0
100
AcDbPolyline
90
4
70
1
43
0.0
10
86.94540534801051
20
41.265096833015527
42
-0.046928553268519108
10
87.945405348010581
20
41.735418149214354
10
87.945405348010596
20
30.634066880112108
42
-0.046928553268525561
10
86.945405348010581
20
31.104388196310989
0
LWPOLYLINE
5
110
100
AcDbEntity
8
0
100
AcDbPolyline
90
4
70
1
43
0.0
10
91.94540534801061
20
41.735418149214354
10
91.94540534801061
20
30.634066880112041
42
0.046928553268521092
10
92.945405348010596
20
31.104388196310992
10
92.945405348010596
20
41.265096833015413
42
0.046928553268514833
0
LWPOLYLINE
5
111
100
AcDbEntity
8
0
100
AcDbPolyline
90
4
70
1
43
0.0
10
84.445405348010354
20
38.320158165069515
42
-0.083432220450711303
10
85.445405348010596
20
40.000499320330988
10
85.445405348010581
20
32.368985708995403
42
-0.083432220450717465
10
84.445405348010581
20
34.049326864256962
0
LWPOLYLINE
5
112
100
AcDbEntity
8
0
100
AcDbPolyline
90
4
70
1
43
0.0
10
89.445405348010567
20
42.063517897342933
42
-0.042449234640742371
10
90.445405348010596
20
42.06351789734282
10
90.445405348010596
20
30.305967131983685
42
-0.042449234640748824
10
89.445405348010581
20
30.305967131983572
0
LWPOLYLINE
5
113
100
AcDbEntity
8
0
100
AcDbPolyline
90
36
70
1
43
0.0
10
41.899999999999991
20
100.60000000000001
10
68.099999999999994
20
100.60000000000001
10
68.099999999999994
20
97.599999999999994
10
92.900000000000006
20
97.599999999999994
10
92.900000000000006
20
100.60000000000001
10
113.10000000000001
20
100.60000000000001
10
113.10000000000001
20
82.400000000000006
10
110.09999999999999
20
82.400000000000006
10
110.09999999999999
20
57.599999999999994
10
113.10000000000001
20
57.599999999999994
10
113.10000000000001
20
37.700000000000003
10
110.09999999999999
20
37.700000000000003
10
110.09999999999999
20
12.899999999999999
10
113.10000000000001
20
12.899999999999999
10
113.10000000000001
20
-5.3000000000000007
10
92.900000000000006
20
-5.3000000000000016
10
92.900000000000006
20
-2.3000000000000007
10
68.100000000000009
20
-2.3000000000000034
10
68.100000000000009
20
-5.3000000000000034
10
41.900000000000013
20
-5.3000000000000043
10
41.900000000000013
20
-2.3000000000000043
10
17.100000000000005
20
-2.3000000000000065
10
17.100000000000005
20
-5.3000000000000069
10
-3.0999999999999939
20
-5.3000000000000069
10
-3.0999999999999952
20
12.899999999999988
10
-0.099999999999994468
20
12.899999999999983
10
-0.099999999999996203
20
37.699999999999989
10
-3.0999999999999965
20
37.699999999999989
10
-3.0999999999999983
20
57.599999999999987
10
-0.099999999999997799
20
57.599999999999987
10
-0.099999999999998979
20
82.400000000000006
10
-3.0999999999999996
20
82.400000000000006
10
-3.1000000000000005
20
100.60000000000001
10
17.100000000000001
20
100.60000000000001
10
17.100000000000001
20
97.599999999999994
10
41.899999999999991
20
97.599999999999994
0
LWPOLYLINE
5
114
100
AcDbEntity
8
0
100
AcDbPolyline
90
4
70
1
43
0.0
10
90.599999999999994
20
84.550691300962569
10
19.499999999999989
20
84.550691300962569
10
19.499999999999993
20
59.750691301148599
10
90.599999999999994
20
59.750691301148599
0
ENDSEC
0
SECTION
2
OBJECTS
0
DICTIONARY
5
C
100
AcDbDictionary
3
ACAD_GROUP
350
D
3
ACAD_MLINESTYLE
350
17
0
DICTIONARY
5
D
100
AcDbDictionary
0
DICTIONARY
5
1A
330
C
100
AcDbDictionary
0
DICTIONARY
5
17
100
AcDbDictionary
0
ENDSEC
0
EOF
